Dark'n Stars
Tab Nasıl Okunur? Yasak

Dark'n Stars


 
AnasayfaAnasayfa  AramaArama  Kayıt OlKayıt Ol  Giriş yapGiriş yap  

Paylaş
 

 Tab Nasıl Okunur?

Aşağa gitmek 
YazarMesaj
Administratör
..:: уöηєтι¢ι ::..
..:: уöηєтι¢ι ::..
Administratör

Mesaj Sayısı : 828
Rep Gücü : 2103
Doğum tarihi : 20/02/93
Yaş : 26
Lakap : |__IssIz_AdaM__|

Tab Nasıl Okunur? Empty
MesajKonu: Tab Nasıl Okunur?   Tab Nasıl Okunur? I_icon_minitimePerş. Nis. 29, 2010 6:00 pm

TABLATURE(TAB)TEKNİĞİ


Tab,nota okumak yerine geliştirilmiş bir tekniktir.Gitar için (diğer
enstrümanlar içinde) vardır.Tab’ın mantığını anladıktan sonra tab
okumanın ne kadar kolay olduğunu göreceğiz.
Tablature yada tab aşşağıdaki şekildeki gibi gözükür.Bu tablature(tab)’ın boş bir şekilde gösterilişidir

e-------------------------------------------------------------------
B------------------------------------------------------------------
G------------------------------------------------------------------
D------------------------------------------------------------------
A------------------------------------------------------------------
E------------------------------------------------------------------
Bu tab’a baktığımızda ne anlıyacağız?

İlk olarak;simgeleri bilmeliyiz,hangi simge neyi ifade etmektedir?
harfi ile gösterilen gitarımızın en alt teli,yani birinci teli ve Mi(ince) telini ifade etmektedir.
harfi ile gösterilen gitarımızın ikinci teli ve Si telini ifade etmektedir.
harfi ile gösterilen gitarımızın üçüncü telini ve Sol telini ifade etmektedir.
harfi ile gösterilen gitarımızın dördüncü telini ve Re telini ifade temektedir.
harfi ile gösterilen gitarımızın beşinci telini ve La telini ifade etmektedir.
harfi ile gösterilen gitarımıızn altıncı telini ve Mi(kalın) telini ifade etmektedir.


Dikkat ederseniz ters gibi görünecektir,böyle olmasının sebebi tutuşa
göre hazırlanmış olmasıdır.Gitarımızda altı tane tel var. Aşağıdan
yukarı doğru nota olarak ( mi si sol re la mi) harf olarak ( e B G D A
E ) şeklindedir.Harfler gitarımızdaki telleri, uzun devam eden çizgiler
ise klavyemizi gösterir.

İkinci olarak;sol elimizde parmak ismleri ve hangi perdeye hangi parmak basıcak?
Önceki
derslerimizden hatırlayacağınız üzere sol elimizde parmak isimlerine
göre sırasıyla perdelere basıcaktık.Bunu tekrar bir hatırlayalım;
Sol el parmak numaraları:
1. perde için işaret parmağı,
2. perde için orta parmağı,
3. perde için yüzük parmağı,
4.
perde için serçe parmağı,şeklindeydi.Doğru parmakla,doğru perdeye
basmaya dikkat edelim.Parmaklarımızın uyumu için buna özel ilgi
göstermeliyiz.
Örnek-1

e------2----------------------------------------------------------
B-----------------------------------------------------------------
G-----------------------------------------------------------------
D-----------------------------------------------------------------
A-----------------------------------------------------------------
E-----------------------------------------------------------------


Örneğimizde Tab üzerinde sayı görülmekte,böyle bir durumda;sayı hangi
telin üzerinde ona bakıcaz.Tabımızda görüldüğü gibi e(ince Mi) teli
üzerinde yani gitarımızın en alt teli,birinci telinde.Buna karar
verdikten sonra rakama bakıcaz.Yazılmış olan rakam bize o tel üzerinde
hangi perdeye basmamız gerektiğini göstericek.Örneğimizde 2 sayısını
görmekteyiz.Bu bize gitarımızın en alt e telinde ikinci perdeye
basıcağımızı ifade ediyor.Sadece basmamız yeterli değil bir defa da o
tele dokunmamız gerekiyor.

Örnek-2

e------2----------------------------------------------------------
B---------3------------------------------------------------------
G-----------------------------------------------------------------
D-----------------------------------------------------------------
A-----------------------------------------------------------------
E-----------------------------------------------------------------


Örneğimizde tab üzerinde iki tane sayı görülmekte.Böyle bir durumda
ilk önce 2 sayısını çalıyoruz.Bunu nerden anladık,çünkü tab okumaya
soldan sağa doğru başlıyorduk ve 2 sayısı tabımızda da görüldüğü gibi
sol taraftan baktığımızda ilk sırada.Daha sonra 2 sayısının bulunduğu
çizginin baş tarafında e harfini görüyoruz. Bu harf gitarımızın e (ince
Mi) telini ifade ediyor.2 sayısı ise o telin ikinci perdesinin
çalınacağını söylüyor.Daha sonra 3 rakamını görüyoruz.3 rakamının
yazılı olduğu telimize bakıyoruz B (Si teli) üzerinde buna karar
verdikten sonra B (Si teli) üzerinde 3.perdeye basarak çalıcağımızı
anlıyoruz.
Örnek-3

e------0---1---2---3---4-----------------------------------------
B------------------------------------------------------------------
G------------------------------------------------------------------
D------------------------------------------------------------------
A------------------------------------------------------------------
E------------------------------------------------------------------

Örneğimizde
Tab üzerinde sayılar görülmekte,böyle bir durumda;sayılar hangi telin
üzerinde ona bakıyorduk.Tabımızda görüldüğü gibi e teli üzerinde yani
gitarımızın en alt teli.birinci telinde.Buna karar verdikten sonra
rakamlara bakıyorduk.Rakamlar bize o tel üzerinde hangi perdeye
basmamız gerektiğini göstermekteydi.
.Bu örneğimizde ilk rakam e
telinde 0,bu o tel de hiç bir perdeye basmadan bir defa çalmamız
gerektiğini bize göstermektedir.Daha sonra sırasıyla gene e telinde;1
perde,2 perde,3 perde ve 4 perde’ye basarak bir defa çalıcağımızı
anlıyoruz.

Örnek-4

e-----------------------------------------------------
B----------------------------------------------------
G----------------------------------------------------
D----------4----------------------------------------
A------3------3-----4------------------------------
E----------------------------------------------------

İlk
önce 3 sayısını çalıyoruz.Bunu nerden anladık,önceden de söylediğimiz
gibi tab okumaya soldan sağa doğru başlıyorduk ve 3 sayısı tabımızda da
görüldüğü sol taraftan baktığımızda ilk sırada.Daha sonra 3 sayısının
bulunduğu çizginin baş tarafında A harfini görüyoruz. Bu harf
gitarımızın La telini(aşağıdan yukarı doğru sayarak 5.tel) ifade
ediyor.3 sayısı ise o telin üçüncü perdesinin çalınacağını bize
gösteriyor..
Sonraki 4 sayısı D teli(re notası:aşağıdan yukarı
doğru 4.tel) üzerinde.Yani gitarın 4.telinin dört numaralı perdesine
basarak çalıyoruz. Üçüncü sayı 3 ve A teli üzerinde ve 3.perdeye
basarak çalıyoruz Dördüncü sayı yine A teli üzerinde 4.perdeye basarak
çalıyoruz.
Örnek-5

e----------------------------------------------------
B---------------------------------------------------
G---------------------------------------------------
D---------------------------------------------------
A---2--4-------------------------------------------
E---1--3-------------------------------------------

Üstüste
sayılar olduğunu görünce ne yapmamız gerekiyor?Üstüste olan sayılar
aynı anda basılması gerektiğini gösterir yani E telinin 1. perdesi ile
A telinin 2. perdesine birlikte basıcaz ve her iki telide aynı anda
çalıcaz..Daha sonra E telinin 3.perdesi ile A telinin 4.perdesine
basıcaz ve gene her iki telide aynı anda çalıcaz.

Örnek-6

e----------0-----------------------------------------
B-------0-------------------------------------------
G----0-----------------------------------------------
D----------------------------------------------------
A----------------------------------------------------
E----------------------------------------------------


Bu örneğimizde soldan sağa doğru okumaya başladığımızda ilk olarak G
(Sol) telinde 0 rakamını çalmamız gerekiyor.0 rakamı bize o telde hiç
bir perdeye basmadan bir defa çalmamız gerektiğini ifade ediyor.O
halde, sırasıyla G (sol) telinde hiçbir perdeye basmadan bir defa
telimize dokunuyoruz sonrasında B (Si) telinde ve e(ince Mi) telinde de
aynısını uyguluyoruz.
Sayfa başına dön Aşağa gitmek
http://dark.nstars.org
 
Tab Nasıl Okunur?
Sayfa başına dön 
1 sayfadaki 1 sayfası

Bu forumun müsaadesi var:Bu forumdaki mesajlara cevap veremezsiniz
Dark'n Stars :: | Müzik | :: | Gitar Tab - Akor |-
Buraya geçin: